  0
SECTION
  2
HEADER
  9
$ACADVER
  1
AC1009
  9
$INSBASE
 10
25.54487319909006
 20
45.12611473097063
 30
0.0
  9
$EXTMIN
 10
25.54487319909006
 20
45.12611473097063
 30
0.0
  9
$EXTMAX
 10
83.97646499285684
 20
64.36927708924827
 30
0.0
  9
$LIMMIN
 10
0.0
 20
0.0
  9
$LIMMAX
 10
420.0
 20
297.0
  9
$ORTHOMODE
 70
     0
  9
$REGENMODE
 70
     0
  9
$FILLMODE
 70
     1
  9
$QTEXTMODE
 70
     0
  9
$MIRRTEXT
 70
     0
  9
$DRAGMODE
 70
     2
  9
$LTSCALE
 40
1.0
  9
$OSMODE
 70
     0
  9
$ATTMODE
 70
     1
  9
$TEXTSIZE
 40
3.5
  9
$TRACEWID
 40
0.1
  9
$TEXTSTYLE
  7
STANDARD
  9
$CLAYER
  8
0
  9
$CELTYPE
  6
BYLAYER
  9
$CECOLOR
 62
   256
  9
$DIMSCALE
 40
1.0
  9
$DIMASZ
 40
2.0
  9
$DIMEXO
 40
1.0
  9
$DIMDLI
 40
8.0
  9
$DIMRND
 40
0.0
  9
$DIMDLE
 40
0.0
  9
$DIMEXE
 40
2.0
  9
$DIMTP
 40
0.1
  9
$DIMTM
 40
0.1
  9
$DIMTXT
 40
3.5
  9
$DIMCEN
 40
2.0
  9
$DIMTSZ
 40
0.0
  9
$DIMTOL
 70
     0
  9
$DIMLIM
 70
     0
  9
$DIMTIH
 70
     0
  9
$DIMTOH
 70
     0
  9
$DIMSE1
 70
     0
  9
$DIMSE2
 70
     0
  9
$DIMTAD
 70
     1
  9
$DIMZIN
 70
     0
  9
$DIMBLK
  1

  9
$DIMASO
 70
     1
  9
$DIMSHO
 70
     0
  9
$DIMPOST
  1

  9
$DIMAPOST
  1

  9
$DIMALT
 70
     0
  9
$DIMALTD
 70
     2
  9
$DIMALTF
 40
25.39999999999999
  9
$DIMLFAC
 40
1.0
  9
$DIMTOFL
 70
     0
  9
$DIMTVP
 40
0.0
  9
$DIMTIX
 70
     0
  9
$DIMSOXD
 70
     0
  9
$DIMSAH
 70
     0
  9
$DIMBLK1
  1

  9
$DIMBLK2
  1

  9
$DIMSTYLE
  2
*UNNAMED
  9
$DIMCLRD
 70
     0
  9
$DIMCLRE
 70
     0
  9
$DIMCLRT
 70
     0
  9
$DIMTFAC
 40
1.0
  9
$DIMGAP
 40
0.09
  9
$LUNITS
 70
     2
  9
$LUPREC
 70
     3
  9
$SKETCHINC
 40
0.1
  9
$FILLETRAD
 40
20.0
  9
$AUNITS
 70
     0
  9
$AUPREC
 70
     1
  9
$MENU
  1

  9
$ELEVATION
 40
0.0
  9
$PELEVATION
 40
0.0
  9
$THICKNESS
 40
0.0
  9
$LIMCHECK
 70
     0
  9
$BLIPMODE
 70
     0
  9
$CHAMFERA
 40
0.0
  9
$CHAMFERB
 40
0.0
  9
$SKPOLY
 70
     1
  9
$TDCREATE
 40
2448544.666555092
  9
$TDUPDATE
 40
2449393.437911226
  9
$TDINDWG
 40
0.0016427083
  9
$TDUSRTIMER
 40
0.0016427083
  9
$USRTIMER
 70
     1
  9
$ANGBASE
 50
0.0
  9
$ANGDIR
 70
     0
  9
$PDMODE
 70
     0
  9
$PDSIZE
 40
0.0
  9
$PLINEWID
 40
0.0
  9
$COORDS
 70
     2
  9
$SPLFRAME
 70
     0
  9
$SPLINETYPE
 70
     6
  9
$SPLINESEGS
 70
     8
  9
$ATTDIA
 70
     1
  9
$ATTREQ
 70
     1
  9
$HANDLING
 70
     0
  9
$HANDSEED
  5
76
  9
$SURFTAB1
 70
     6
  9
$SURFTAB2
 70
     6
  9
$SURFTYPE
 70
     6
  9
$SURFU
 70
     6
  9
$SURFV
 70
     6
  9
$UCSNAME
  2

  9
$UCSORG
 10
0.0
 20
0.0
 30
0.0
  9
$UCSXDIR
 10
1.0
 20
0.0
 30
0.0
  9
$UCSYDIR
 10
0.0
 20
1.0
 30
0.0
  9
$PUCSNAME
  2

  9
$PUCSORG
 10
0.0
 20
0.0
 30
0.0
  9
$PUCSXDIR
 10
1.0
 20
0.0
 30
0.0
  9
$PUCSYDIR
 10
0.0
 20
1.0
 30
0.0
  9
$USERI1
 70
     0
  9
$USERI2
 70
     3
  9
$USERI3
 70
    15
  9
$USERI4
 70
     0
  9
$USERI5
 70
     0
  9
$USERR1
 40
1.0
  9
$USERR2
 40
1.0
  9
$USERR3
 40
0.0
  9
$USERR4
 40
1.0
  9
$USERR5
 40
0.0
  9
$WORLDVIEW
 70
     1
  9
$SHADEDGE
 70
     3
  9
$SHADEDIF
 70
    70
  9
$TILEMODE
 70
     1
  9
$MAXACTVP
 70
    16
  9
$PINSBASE
 10
0.0
 20
0.0
 30
0.0
  9
$PLIMCHECK
 70
     0
  9
$PEXTMIN
 10
1.000000000000000E+20
 20
1.000000000000000E+20
 30
1.000000000000000E+20
  9
$PEXTMAX
 10
-1.000000000000000E+20
 20
-1.000000000000000E+20
 30
-1.000000000000000E+20
  9
$PLIMMIN
 10
0.0
 20
0.0
  9
$PLIMMAX
 10
12.0
 20
9.0
  9
$UNITMODE
 70
     0
  9
$VISRETAIN
 70
     0
  9
$PLINEGEN
 70
     0
  9
$PSLTSCALE
 70
     0
  9
$TREEDEPTH
 70
  3020
  9
$DWGCODEPAGE
  3
undefined
  0
ENDSEC
  0
SECTION
  2
TABLES
  0
TABLE
  2
VPORT
 70
     2
  0
VPORT
  2
*ACTIVE
 70
     0
 10
0.0
 20
0.0
 11
1.0
 21
1.0
 12
54.76066909597345
 22
68.0283276162394
 13
0.0
 23
0.0
 14
1.0
 24
1.0
 15
10.0
 25
10.0
 16
0.0
 26
0.0
 36
1.0
 17
0.0
 27
0.0
 37
0.0
 40
45.80442577053752
 41
1.275675675675675
 42
50.0
 43
0.0
 44
0.0
 50
0.0
 51
0.0
 71
     0
 72
   100
 73
     1
 74
     0
 75
     0
 76
     0
 77
     0
 78
     0
  0
ENDTAB
  0
TABLE
  2
LTYPE
 70
     2
  0
LTYPE
  2
AUSGEZOGEN
 70
    64
  3
Solid line
 72
    65
 73
     0
 40
0.0
  0
LTYPE
  2
ITEM-STRICHPGR
 70
    64
  3
____ . ____ . ____ . ____ . ____ . ____ . ____
 72
    65
 73
     4
 40
15.0
 49
10.0
 49
-2.5
 49
0.0
 49
-2.5
  0
ENDTAB
  0
TABLE
  2
LAYER
 70
     4
  0
LAYER
  2
0
 70
     0
 62
     7
  6
AUSGEZOGEN
  0
LAYER
  2
ITEM_50
 70
    64
 62
     7
  6
AUSGEZOGEN
  0
LAYER
  2
ITEM_HILFE
 70
    64
 62
     3
  6
AUSGEZOGEN
  0
LAYER
  2
ITEM_STPG
 70
    64
 62
     4
  6
ITEM-STRICHPGR
  0
ENDTAB
  0
TABLE
  2
STYLE
 70
     1
  0
STYLE
  2
STANDARD
 70
     0
 40
0.0
 41
1.0
 50
0.0
 71
     0
 42
3.5
  3
iso
  4

  0
ENDTAB
  0
TABLE
  2
VIEW
 70
     0
  0
ENDTAB
  0
TABLE
  2
UCS
 70
     0
  0
ENDTAB
  0
TABLE
  2
APPID
 70
     1
  0
APPID
  2
ACAD
 70
    64
  0
ENDTAB
  0
TABLE
  2
DIMSTYLE
 70
     0
  0
ENDTAB
  0
ENDSEC
  0
SECTION
  2
BLOCKS
  0
ENDSEC
  0
SECTION
  2
ENTITIES
  0
POINT
  8
ITEM_HILFE
 10
74.68900598379349
 20
54.69565217390992
 30
0.0
  0
LINE
  8
ITEM_STPG
 10
65.62444599094317
 20
54.69565217390989
 30
0.0
 11
83.97646499285684
 21
54.69565217390989
 31
0.0
  0
LINE
  8
ITEM_STPG
 10
74.68900598379346
 20
45.12611473097063
 30
0.0
 11
74.68900598379349
 21
64.36927708924827
 31
0.0
  0
CIRCLE
  8
ITEM_50
 10
74.68900598379349
 20
54.69565217390992
 30
0.0
 40
7.0
  0
CIRCLE
  8
ITEM_50
 10
74.68900598379349
 20
54.69565217390992
 30
0.0
 40
5.0
  0
LINE
  8
ITEM_50
 10
72.18900598379349
 20
53.25227650093585
 30
0.0
 11
74.68900598379349
 21
51.80890082796178
 31
0.0
  0
LINE
  8
ITEM_50
 10
74.68900598379349
 20
51.80890082796178
 30
0.0
 11
77.18900598379349
 21
53.25227650093585
 31
0.0
  0
LINE
  8
ITEM_50
 10
77.18900598379349
 20
53.25227650093585
 30
0.0
 11
77.18900598379349
 21
56.13902784688399
 31
0.0
  0
LINE
  8
ITEM_50
 10
77.18900598379349
 20
56.13902784688399
 30
0.0
 11
74.68900598379349
 21
57.58240351985806
 31
0.0
  0
LINE
  8
ITEM_50
 10
74.68900598379349
 20
57.58240351985806
 30
0.0
 11
72.18900598379349
 21
56.13902784688399
 31
0.0
  0
LINE
  8
ITEM_50
 10
72.18900598379349
 20
56.13902784688399
 30
0.0
 11
72.18900598379349
 21
53.25227650093585
 31
0.0
  0
POINT
  8
ITEM_HILFE
 10
30.54487319909006
 20
54.69565217391304
 30
0.0
  0
LINE
  8
ITEM_50
 10
37.24487319908999
 20
59.69565217391622
 30
0.0
 11
37.24487319909005
 21
49.69565217391622
 31
0.0
  0
LINE
  8
ITEM_50
 10
36.44487319909322
 20
49.69565217391622
 30
0.0
 11
36.44487319909322
 21
59.69565217390992
 31
0.0
  0
LINE
  8
ITEM_50
 10
35.44487319909322
 20
58.69565217391304
 30
0.0
 11
35.44487319909322
 21
50.69565217391304
 31
0.0
  0
LINE
  8
ITEM_50
 10
34.44487319909322
 20
50.69565217391304
 30
0.0
 11
34.44487319909322
 21
58.69565217391304
 31
0.0
  0
LINE
  8
ITEM_50
 10
33.44487319908691
 20
59.69565217391622
 30
0.0
 11
33.44487319909322
 21
49.69565217391622
 31
0.0
  0
LINE
  8
ITEM_50
 10
31.54487319908995
 20
49.69565217391622
 30
0.0
 11
31.54487319909006
 21
59.69565217391622
 31
0.0
  0
LINE
  8
ITEM_50
 10
37.54487319909006
 20
49.99565217391624
 30
0.0
 11
37.54487319909006
 21
59.39565217391621
 31
0.0
  0
LINE
  8
ITEM_50
 10
30.84487319909013
 20
58.19565217394396
 30
0.0
 11
31.24487319908999
 21
58.19565217394396
 31
0.0
  0
LINE
  8
ITEM_50
 10
31.24487319908999
 20
49.99565217391624
 30
0.0
 11
31.24487319908999
 21
59.39565217391621
 31
0.0
  0
LINE
  8
ITEM_50
 10
36.44487319909322
 20
49.69565217391622
 30
0.0
 11
35.44487319909322
 21
50.69565217391304
 31
0.0
  0
LINE
  8
ITEM_50
 10
35.44487319909322
 20
50.69565217391304
 30
0.0
 11
34.44487319909322
 21
50.69565217391304
 31
0.0
  0
LINE
  8
ITEM_50
 10
33.44487319909322
 20
49.69565217391622
 30
0.0
 11
34.44487319909322
 21
50.69565217391304
 31
0.0
  0
LINE
  8
ITEM_50
 10
33.44487319909322
 20
59.69565217390992
 30
0.0
 11
34.44487319909322
 21
58.69565217391304
 31
0.0
  0
LINE
  8
ITEM_50
 10
35.44487319909322
 20
58.69565217391304
 30
0.0
 11
34.44487319909322
 21
58.69565217391304
 31
0.0
  0
LINE
  8
ITEM_50
 10
36.44487319909322
 20
59.69565217390992
 30
0.0
 11
35.44487319909322
 21
58.69565217391304
 31
0.0
  0
LINE
  8
ITEM_50
 10
31.54487319909006
 20
59.69565217391622
 30
0.0
 11
33.44487319908691
 21
59.69565217391622
 31
0.0
  0
LINE
  8
ITEM_50
 10
33.44487319909322
 20
49.69565217391622
 30
0.0
 11
31.54487319908995
 21
49.69565217391622
 31
0.0
  0
LINE
  8
ITEM_50
 10
36.44487319909947
 20
59.69565217391622
 30
0.0
 11
37.24487319908999
 21
59.69565217391622
 31
0.0
  0
LINE
  8
ITEM_50
 10
37.24487319909005
 20
49.69565217391622
 30
0.0
 11
36.44487319909316
 21
49.69565217391622
 31
0.0
  0
LINE
  8
ITEM_50
 10
31.24487319908999
 20
49.99565217391624
 30
0.0
 11
31.54487319908995
 21
49.69565217391622
 31
0.0
  0
LINE
  8
ITEM_50
 10
37.24487319909005
 20
49.69565217391622
 30
0.0
 11
37.54487319909006
 21
49.99565217391624
 31
0.0
  0
LINE
  8
ITEM_50
 10
31.24487319908999
 20
59.39565217391621
 30
0.0
 11
31.54487319909006
 21
59.69565217391622
 31
0.0
  0
LINE
  8
ITEM_50
 10
37.24487319908999
 20
59.69565217391622
 30
0.0
 11
37.54487319909006
 21
59.39565217391621
 31
0.0
  0
LINE
  8
ITEM_STPG
 10
25.54487319909006
 20
54.69565217391304
 30
0.0
 11
62.54487319909006
 21
54.69565217391304
 31
0.0
  0
LINE
  8
ITEM_50
 10
43.24487319908504
 20
54.05303413152982
 30
0.0
 11
43.24487319908931
 21
50.36160435951272
 31
0.0
  0
LINE
  8
ITEM_50
 10
45.54487319909006
 20
54.26719211549344
 30
0.0
 11
45.54487319909006
 21
52.69565217391304
 31
0.0
  0
LINE
  8
ITEM_50
 10
43.24487319908504
 20
54.05303413152982
 30
0.0
 11
43.24487319907862
 21
59.69565217391304
 31
0.0
  0
LINE
  8
ITEM_50
 10
45.54487319909006
 20
54.26719211549344
 30
0.0
 11
45.54487319909006
 21
57.69565217391304
 31
0.0
  0
LINE
  8
ITEM_50
 10
57.24487319905333
 20
52.69565217391298
 30
0.0
 11
57.24487319909005
 21
56.69565217391622
 31
0.0
  0
LINE
  8
ITEM_50
 10
50.54487319908153
 20
57.69565217391298
 30
0.0
 11
50.54487319909006
 21
52.69565217391304
 31
0.0
  0
LINE
  8
ITEM_50
 10
43.24487319909005
 20
49.69565217394976
 30
0.0
 11
43.24487319908931
 21
50.36160435951272
 31
0.0
  0
LINE
  8
ITEM_50
 10
37.84487319909007
 20
59.69565217391298
 30
0.0
 11
37.84487319909177
 21
49.69565217391304
 31
0.0
  0
LINE
  8
ITEM_50
 10
30.84487319909013
 20
51.19565217391304
 30
0.0
 11
30.84487319909013
 21
58.19565217394396
 31
0.0
  0
LINE
  8
ITEM_50
 10
57.54487319909006
 20
52.99565217394972
 30
0.0
 11
57.54487319909006
 21
56.39565217391616
 31
0.0
  0
LINE
  8
ITEM_50
 10
57.24487319909005
 20
52.69565217394971
 30
0.0
 11
57.54487319909006
 21
52.99565217394972
 31
0.0
  0
LINE
  8
ITEM_50
 10
50.8448731990901
 20
52.69565217391304
 30
0.0
 11
50.84487319909007
 21
53.19565217391304
 31
0.0
  0
LINE
  8
ITEM_50
 10
43.24487319905333
 20
49.69565217391304
 30
0.0
 11
43.54487319909006
 21
49.99565217394972
 31
0.0
  0
LINE
  8
ITEM_50
 10
37.84487319909007
 20
49.69565217391304
 30
0.0
 11
43.24487319905327
 21
49.69565217391304
 31
0.0
  0
LINE
  8
ITEM_50
 10
37.84487319909007
 20
49.69565217391475
 30
0.0
 11
37.54487319909006
 21
49.9956521739147
 31
0.0
  0
LINE
  8
ITEM_50
 10
30.54487319909012
 20
51.49565217390731
 30
0.0
 11
30.84487319909002
 21
51.19565217390747
 31
0.0
  0
LINE
  8
ITEM_50
 10
30.84487319909007
 20
51.19565217391304
 30
0.0
 11
31.24487319908996
 21
51.19565217391304
 31
0.0
  0
LINE
  8
ITEM_50
 10
57.54487319909006
 20
56.39565217391616
 30
0.0
 11
57.24487319909005
 21
56.69565217391293
 31
0.0
  0
LINE
  8
ITEM_50
 10
57.24487319909005
 20
56.69565217391304
 30
0.0
 11
50.84487319909007
 21
56.69565217391304
 31
0.0
  0
LINE
  8
ITEM_50
 10
50.54487319908153
 20
57.69565217391304
 30
0.0
 11
45.54487319909006
 21
57.69565217391298
 31
0.0
  0
LINE
  8
ITEM_50
 10
50.84487319909013
 20
57.3956521739045
 30
0.0
 11
50.54487319908153
 21
57.69565217391304
 31
0.0
  0
LINE
  8
ITEM_50
 10
43.24487319907862
 20
59.69565217391304
 30
0.0
 11
37.84487319909007
 21
59.69565217391304
 31
0.0
  0
LINE
  8
ITEM_50
 10
43.54487319909006
 20
59.39565217390155
 30
0.0
 11
43.24487319909005
 21
59.69565217390156
 31
0.0
  0
LINE
  8
ITEM_50
 10
37.54487319909011
 20
59.3956521739439
 30
0.0
 11
37.84487319909007
 21
59.69565217394396
 31
0.0
  0
LINE
  8
ITEM_50
 10
30.54487319909006
 20
57.8956521739439
 30
0.0
 11
30.54487319909006
 21
51.49565217390737
 31
0.0
  0
LINE
  8
ITEM_50
 10
30.54487319909012
 20
57.8956521739439
 30
0.0
 11
30.84487319905921
 21
58.19565217391304
 31
0.0
  0
LINE
  8
ITEM_50
 10
50.84487319909007
 20
53.19565217391304
 30
0.0
 11
50.84487319909013
 21
57.19565217391298
 31
0.0
  0
LINE
  8
ITEM_50
 10
43.54487319909006
 20
59.39565217390155
 30
0.0
 11
43.54487319909006
 21
49.99565217394972
 31
0.0
  0
LINE
  8
ITEM_50
 10
50.84487319909007
 20
57.19565217391304
 30
0.0
 11
50.84487319909007
 21
57.3956521739045
 31
0.0
  0
LINE
  8
ITEM_50
 10
57.24487319909005
 20
52.69565217391304
 30
0.0
 11
45.54487319909006
 21
52.69565217391304
 31
0.0
  0
LINE
  8
ITEM_50
 10
45.54487319909006
 20
57.69565217391304
 30
0.0
 11
44.79846303757628
 21
57.495652173913
 31
0.0
  0
LINE
  8
ITEM_50
 10
44.79846303757628
 20
57.495652173913
 30
0.0
 11
43.54487319909006
 21
57.495652173913
 31
0.0
  0
LINE
  8
ITEM_50
 10
45.54487319909006
 20
52.69565217391304
 30
0.0
 11
44.84932965658234
 21
52.88202250442866
 31
0.0
  0
ARC
  8
ITEM_50
 10
44.74580203854132
 20
52.49565217391301
 30
0.0
 40
0.4000000000000197
 50
74.99999999999997
 51
90.00000000000203
  0
LINE
  8
ITEM_50
 10
44.74580203854131
 20
52.89565217391303
 30
0.0
 11
43.54487319909011
 21
52.89565217391297
 31
0.0
  0
ENDSEC
  0
EOF
